  0
SECTION
  2
HEADER
  9
$ACADVER
  1
AC1006
  9
$AXISMODE
 70
     0
  9
$AXISUNIT
 10
0.0625
 20
0.0625
  9
$CECOLOR
 62
0
  9
$CELTYPE
  6
CONTINUOUS
  9
$CLAYER
  8
LAYER1
  9
$EXTMIN
 10
0
 20
0
  9
$EXTMAX
 10
7.6667
 20
10.92
  9
$LIMMIN
 10
0
 20
0
  9
$LIMMAX
 10
7.6667
 20
10.92
  9
$GRIDMODE
 70
     0
  9
$GRIDUNIT
 10
0.125
 20
0.125
  9
$MIRRTEXT
 70
     1
  9
$SNAPMODE
 70
     1
  9
$SNAPUNIT
 10
0.125
 20
0
  9
$SNAPSTYLE
 70
     0
  9
$SPLINESEGS
 70
     8
  9
$SPLINETYPE
 70
     6
  0
ENDSEC
  0
SECTION
  2
TABLES
  0TABLE  2VPORT 70     2  0VPORT  2*ACTIVE 70     0 100.0 200.0 111.0 211.0 1213.01087 224.5 130.0 230.0 141.0 241.0 150.0 250.0 160.0 260.0 361.0 170.0 270.0 370.0 409.0 412.891304 4250.0 430.0 440.0 500.0 510.0 71     0 72   100 73     1 74     1 75     0 76     0 77     0 78     0  0ENDTAB
  0
TABLE
  2
LTYPE
 70
     3
  0
LTYPE
  2
CONTINUOUS
 70
    64
  3
Descriptive Text
 72
    65
 73
     0
 40
0
  0
LTYPE
  2
DASH1
 70
    64
  3
Descriptive Text
 72
    65
 73
     2
 40
0.25
 49
0.125
 49
-0.125
  0
LTYPE
  2
DASH2
 70
    64
  3
Descriptive Text
 72
    65
 73
     2
 40
0.0694
 49
0.0417
 49
-0.0278
  0
ENDTAB
  0
TABLE
  2
LAYER
 70
     1
  0
LAYER
  2
LAYER1
 70
     0
 62
     7
  6
CONTINUOUS
  0
ENDTAB
  0TABLE  2STYLE 70     1  0STYLE  2STANDARD 70     0 400.0 411.0 500.0 71     0 420.2  3txt  4  0ENDTAB
  0
TABLE
  2
VIEW
 70
     0
  0
ENDTAB
  0
TABLE
  2
UCS
 70
     0
  0
ENDTAB
  0
TABLE
  2
DWGMGR
 70
     0
  0
ENDTAB
  0
ENDSEC
  0
SECTION
  2
BLOCKS
  0
BLOCK
  8
LAYER1
  2
Group1
 70
     0
 10
0
 20
0
 30
0
  0
TEXT
  8
LAYER1
 62
     7
 10
0.3162
 20
10.6073
 30
0
 40
0.125
  1
FLOWSHEET SYMBOLS- Piping Elements
 50
0
999
Geneva
  0
LINE
  8
LAYER1
  6
CONTINUOUS
 62
     7
 10
0.2917
 20
10.8611
 30
0
 11
4.3194
 21
10.8611
 31
0
  0
ENDBLK
  8
LAYER1
  0
BLOCK
  8
LAYER1
  2
Group2
 70
     0
 10
0
 20
0
 30
0
  0
LINE
  8
LAYER1
  6
CONTINUOUS
 62
     7
 10
0.3056
 20
10.5417
 30
0
 11
4.3333
 21
10.5417
 31
0
  0
POLYLINE
  8
LAYER1
  6
CONTINUOUS
 62
     7
 66
     1
 70
     0
 40
0.0049
 41
0.0049
  0
VERTEX
  8
LAYER1
 10
4.1111
 20
9.0764
 30
0
 70
     0
  0
VERTEX
  8
LAYER1
 10
4.1168
 20
9.1189
 30
0
 70
     0
  0
VERTEX
  8
LAYER1
 10
4.1337
 20
9.1424
 30
0
 70
     0
  0
VERTEX
  8
LAYER1
 10
4.1619
 20
9.1467
 30
0
 70
     0
  0
VERTEX
  8
LAYER1
 10
4.2014
 20
9.1319
 30
0
 70
     0
  0
VERTEX
  8
LAYER1
 10
4.2014
 20
9.1319
 30
0
 70
     0
  0
VERTEX
  8
LAYER1
 10
4.2352
 20
9.1072
 30
0
 70
     0
  0
VERTEX
  8
LAYER1
 10
4.2465
 20
9.0816
 30
0
 70
     0
  0
VERTEX
  8
LAYER1
 10
4.2352
 20
9.0551
 30
0
 70
     0
  0
VERTEX
  8
LAYER1
 10
4.2014
 20
9.0278
 30
0
 70
     0
  0
VERTEX
  8
LAYER1
 10
4.2014
 20
9.0278
 30
0
 70
     0
  0
VERTEX
  8
LAYER1
 10
4.1619
 20
9.01
 30
0
 70
     0
  0
VERTEX
  8
LAYER1
 10
4.1337
 20
9.0121
 30
0
 70
     0
  0
VERTEX
  8
LAYER1
 10
4.1168
 20
9.0343
 30
0
 70
     0
  0
VERTEX
  8
LAYER1
 10
4.1111
 20
9.0764
 30
0
 70
     0
  0
SEQEND
  0
LINE
  8
LAYER1
  6
CONTINUOUS
 62
     7
 10
3.9028
 20
9.0833
 30
0
 11
4.1111
 21
9.0833
 31
0
  0
POLYLINE
  8
LAYER1
  6
CONTINUOUS
 62
     7
 66
     1
 70
     0
 40
0.0049
 41
0.0049
  0
VERTEX
  8
LAYER1
 10
4.4861
 20
9.0764
 30
0
 70
     0
  0
VERTEX
  8
LAYER1
 10
4.48
 20
9.1189
 30
0
 70
     0
  0
VERTEX
  8
LAYER1
 10
4.4618
 20
9.1424
 30
0
 70
     0
  0
VERTEX
  8
LAYER1
 10
4.4314
 20
9.1467
 30
0
 70
     0
  0
VERTEX
  8
LAYER1
 10
4.3889
 20
9.1319
 30
0
 70
     0
  0
VERTEX
  8
LAYER1
 10
4.3889
 20
9.1319
 30
0
 70
     0
  0
VERTEX
  8
LAYER1
 10
4.3524
 20
9.1072
 30
0
 70
     0
  0
VERTEX
  8
LAYER1
 10
4.3403
 20
9.0816
 30
0
 70
     0
  0
VERTEX
  8
LAYER1
 10
4.3524
 20
9.0551
 30
0
 70
     0
  0
VERTEX
  8
LAYER1
 10
4.3889
 20
9.0278
 30
0
 70
     0
  0
VERTEX
  8
LAYER1
 10
4.3889
 20
9.0278
 30
0
 70
     0
  0
VERTEX
  8
LAYER1
 10
4.4314
 20
9.01
 30
0
 70
     0
  0
VERTEX
  8
LAYER1
 10
4.4618
 20
9.0121
 30
0
 70
     0
  0
VERTEX
  8
LAYER1
 10
4.48
 20
9.0343
 30
0
 70
     0
  0
VERTEX
  8
LAYER1
 10
4.4861
 20
9.0764
 30
0
 70
     0
  0
SEQEND
  0
LINE
  8
LAYER1
  6
CONTINUOUS
 62
     7
 10
4.5833
 20
9.0833
 30
0
 11
4.4861
 21
9.0833
 31
0
  0
POLYLINE
  8
LAYER1
  6
CONTINUOUS
 62
     7
 66
     1
 70
     0
 40
0.0049
 41
0.0049
  0
VERTEX
  8
LAYER1
 10
4.5833
 20
9.0278
 30
0
 70
     0
  0
VERTEX
  8
LAYER1
 10
4.5833
 20
9.1389
 30
0
 70
     0
  0
VERTEX
  8
LAYER1
 10
4.6528
 20
9.1389
 30
0
 70
     0
  0
SEQEND
  0
ENDBLK
  8
LAYER1
  0
BLOCK
  8
LAYER1
  2
Group3
 70
     0
 10
0
 20
0
 30
0
  0
LINE
  8
LAYER1
  6
CONTINUOUS
 62
     7
 10
1.1389
 20
7.1389
 30
0
 11
1.25
 21
7.1389
 31
0
  0
LINE
  8
LAYER1
  6
CONTINUOUS
 62
     7
 10
1.3889
 20
7.1389
 30
0
 11
1.5
 21
7.1389
 31
0
  0
LINE
  8
LAYER1
  6
CONTINUOUS
 62
     7
 10
1.6389
 20
7.1389
 30
0
 11
1.75
 21
7.1389
 31
0
  0
LINE
  8
LAYER1
  6
CONTINUOUS
 62
     7
 10
1.8889
 20
7.1389
 30
0
 11
2
 21
7.1389
 31
0
  0
ENDBLK
  8
LAYER1
  0
BLOCK
  8
LAYER1
  2
Group4
 70
     0
 10
0
 20
0
 30
0
  0
LINE
  8
LAYER1
  6
CONTINUOUS
 62
     7
 10
1.1389
 20
7.2639
 30
0
 11
1.25
 21
7.2639
 31
0
  0
LINE
  8
LAYER1
  6
CONTINUOUS
 62
     7
 10
1.3889
 20
7.2639
 30
0
 11
1.5
 21
7.2639
 31
0
  0
LINE
  8
LAYER1
  6
CONTINUOUS
 62
     7
 10
1.6389
 20
7.2639
 30
0
 11
1.75
 21
7.2639
 31
0
  0
LINE
  8
LAYER1
  6
CONTINUOUS
 62
     7
 10
1.8889
 20
7.2639
 30
0
 11
2
 21
7.2639
 31
0
  0
ENDBLK
  8
LAYER1
  0
BLOCK
  8
LAYER1
  2
Group5
 70
     0
 10
0
 20
0
 30
0
  0
LINE
  8
LAYER1
  6
CONTINUOUS
 62
     7
 10
4.5833
 20
9.0278
 30
0
 11
4.6528
 21
9.0278
 31
0
  0
LINE
  8
LAYER1
  6
DASH1
 62
     7
 10
1.1389
 20
7.1389
 30
0
 11
2.2778
 21
7.1389
 31
0
  0
INSERT
  8
LAYER1
  2
Group3
 10
0
 20
0
 30
0
  0
LINE
  8
LAYER1
  6
CONTINUOUS
 62
     7
 10
2.1389
 20
7.1389
 30
0
 11
2.25
 21
7.1389
 31
0
  0
LINE
  8
LAYER1
  6
CONTINUOUS
 62
     7
 10
1.1389
 20
7.1944
 30
0
 11
2.2778
 21
7.1944
 31
0
  0
LINE
  8
LAYER1
  6
DASH1
 62
     7
 10
1.1389
 20
7.2639
 30
0
 11
2.2778
 21
7.2639
 31
0
  0
INSERT
  8
LAYER1
  2
Group4
 10
0
 20
0
 30
0
  0
ENDBLK
  8
LAYER1
  0
BLOCK
  8
LAYER1
  2
Group6
 70
     0
 10
0
 20
0
 30
0
  0
LINE
  8
LAYER1
  6
CONTINUOUS
 62
     7
 10
2.1389
 20
7.2639
 30
0
 11
2.25
 21
7.2639
 31
0
  0
LINE
  8
LAYER1
  6
CONTINUOUS
 62
     7
 10
1.75
 20
9.0556
 30
0
 11
1.75
 21
8.875
 31
0
  0
LINE
  8
LAYER1
  6
CONTINUOUS
 62
     7
 10
1.6667
 20
8.875
 30
0
 11
1.6667
 21
9.0556
 31
0
  0
LINE
  8
LAYER1
  6
CONTINUOUS
 62
     7
 10
1.3472
 20
8.9583
 30
0
 11
1.6667
 21
8.9583
 31
0
  0
LINE
  8
LAYER1
  6
CONTINUOUS
 62
     7
 10
1.75
 20
8.9583
 30
0
 11
2.0694
 21
8.9583
 31
0
  0
CIRCLE
  8
LAYER1
 10
1.7222
 20
9.1111
 30
0
 40
0.0833
  0
CIRCLE
  8
LAYER1
 10
1.7222
 20
9.2639
 30
0
 40
0.0833
  0
ENDBLK
  8
LAYER1
  0
BLOCK
  8
LAYER1
  2
Group7
 70
     0
 10
0
 20
0
 30
0
  0
LINE
  8
LAYER1
  6
CONTINUOUS
 62
     7
 10
4.3194
 20
7.125
 30
0
 11
4.3194
 21
6.9444
 31
0
  0
LINE
  8
LAYER1
  6
CONTINUOUS
 62
     7
 10
4.2361
 20
6.9444
 30
0
 11
4.2361
 21
7.125
 31
0
  0
LINE
  8
LAYER1
  6
CONTINUOUS
 62
     7
 10
3.9167
 20
7.0417
 30
0
 11
4.2361
 21
7.0417
 31
0
  0
LINE
  8
LAYER1
  6
CONTINUOUS
 62
     7
 10
4.3194
 20
7.0417
 30
0
 11
4.6389
 21
7.0417
 31
0
  0
CIRCLE
  8
LAYER1
 10
4.2778
 20
7.1806
 30
0
 40
0.0833
  0
LINE
  8
LAYER1
  6
CONTINUOUS
 62
     7
 10
4.2083
 20
7.3194
 30
0
 11
4.3472
 21
7.3194
 31
0
  0
LINE
  8
LAYER1
  6
CONTINUOUS
 62
     7
 10
4.2083
 20
7.3194
 30
0
 11
4.2361
 21
7.25
 31
0
  0
ENDBLK
  8
LAYER1
  0
BLOCK
  8
LAYER1
  2
Group8
 70
     0
 10
0
 20
0
 30
0
  0
LINE
  8
LAYER1
  6
CONTINUOUS
 62
     7
 10
4.3472
 20
7.3194
 30
0
 11
4.3056
 21
7.25
 31
0
  0
LINE
  8
LAYER1
  6
CONTINUOUS
 62
     7
 10
1.5417
 20
4.8056
 30
0
 11
1.5417
 21
5.0972
 31
0
  0
LINE
  8
LAYER1
  6
CONTINUOUS
 62
     7
 10
1.8472
 20
4.8611
 30
0
 11
1.8472
 21
5.0556
 31
0
  0
LINE
  8
LAYER1
  6
CONTINUOUS
 62
     7
 10
1.5417
 20
5.0972
 30
0
 11
1.8472
 21
5.0556
 31
0
  0
ENDBLK
  8
LAYER1
  0
BLOCK
  8
LAYER1
  2
Group9
 70
     0
 10
0
 20
0
 30
0
  0
INSERT
  8
LAYER1
  2
Group8
 10
0
 20
0
 30
0
  0
LINE
  8
LAYER1
  6
CONTINUOUS
 62
     7
 10
1.5417
 20
4.8056
 30
0
 11
1.8472
 21
4.8611
 31
0
  0
LINE
  8
LAYER1
  6
CONTINUOUS
 62
     7
 10
1.1944
 20
4.9583
 30
0
 11
1.5417
 21
4.9583
 31
0
  0
ENDBLK
  8
LAYER1
  0
BLOCK
  8
LAYER1
  2
Group10
 70
     0
 10
0
 20
0
 30
0
  0
LINE
  8
LAYER1
  6
CONTINUOUS
 62
     7
 10
4
 20
5.3472
 30
0
 11
3.9722
 21
5.3472
 31
0
  0
ENDBLK
  8
LAYER1
  0
BLOCK
  8
LAYER1
  2
Group11
 70
     0
 10
0
 20
0
 30
0
  0
LINE
  8
LAYER1
  6
CONTINUOUS
 62
     7
 10
4.2083
 20
5.0694
 30
0
 11
4.3889
 21
5.0694
 31
0
  0
LINE
  8
LAYER1
  6
CONTINUOUS
 62
     7
 10
4.5278
 20
5.2639
 30
0
 11
4.5278
 21
5.4444
 31
0
  0
ENDBLK
  8
LAYER1
  0
BLOCK
  8
LAYER1
  2
Group12
 70
     0
 10
0
 20
0
 30
0
  0
LINE
  8
LAYER1
  6
CONTINUOUS
 62
     7
 10
4.5833
 20
5.2639
 30
0
 11
4.5833
 21
5.4444
 31
0
  0
LINE
  8
LAYER1
  6
CONTINUOUS
 62
     7
 10
4.0139
 20
5.2639
 30
0
 11
4.0139
 21
5.4444
 31
0
  0
ENDBLK
  8
LAYER1
  0
BLOCK
  8
LAYER1
  2
Group13
 70
     0
 10
0
 20
0
 30
0
  0
LINE
  8
LAYER1
  6
CONTINUOUS
 62
     7
 10
1.8472
 20
4.9583
 30
0
 11
2.2222
 21
4.9583
 31
0
  0
POLYLINE
  8
LAYER1
  6
CONTINUOUS
 62
     7
 66
     1
 70
     0
 40
0.0049
 41
0.0049
  0
VERTEX
  8
LAYER1
 10
4.3056
 20
5.1111
 30
0
 70
     0
  0
VERTEX
  8
LAYER1
 10
4.3104
 20
5.1584
 30
0
 70
     0
  0
VERTEX
  8
LAYER1
 10
4.3242
 20
5.2026
 30
0
 70
     0
  0
VERTEX
  8
LAYER1
 10
4.3461
 20
5.2427
 30
0
 70
     0
  0
VERTEX
  8
LAYER1
 10
4.375
 20
5.2777
 30
0
 70
     0
  0
VERTEX
  8
LAYER1
 10
4.41
 20
5.3067
 30
0
 70
     0
  0
VERTEX
  8
LAYER1
 10
4.4501
 20
5.3285
 30
0
 70
     0
  0
VERTEX
  8
LAYER1
 10
4.4943
 20
5.3424
 30
0
 70
     0
  0
VERTEX
  8
LAYER1
 10
4.5417
 20
5.3472
 30
0
 70
     0
  0
SEQEND
  0
POLYLINE
  8
LAYER1
  6
CONTINUOUS
 62
     7
 66
     1
 70
     0
 40
0.0049
 41
0.0049
  0
VERTEX
  8
LAYER1
 10
4.0833
 20
5.3472
 30
0
 70
     0
  0
VERTEX
  8
LAYER1
 10
4.0936
 20
5.347
 30
0
 70
     0
  0
VERTEX
  8
LAYER1
 10
4.1039
 20
5.3463
 30
0
 70
     0
  0
SEQEND
  0
POLYLINE
  8
LAYER1
  6
CONTINUOUS
 62
     7
 66
     1
 70
     0
 40
0.0049
 41
0.0049
  0
VERTEX
  8
LAYER1
 10
4.1324
 20
5.3421
 30
0
 70
     0
  0
VERTEX
  8
LAYER1
 10
4.1524
 20
5.3369
 30
0
 70
     0
  0
VERTEX
  8
LAYER1
 10
4.1718
 20
5.33
 30
0
 70
     0
  0
SEQEND
  0
POLYLINE
  8
LAYER1
  6
CONTINUOUS
 62
     7
 66
     1
 70
     0
 40
0.0049
 41
0.0049
  0
VERTEX
  8
LAYER1
 10
4.1978
 20
5.3176
 30
0
 70
     0
  0
VERTEX
  8
LAYER1
 10
4.2154
 20
5.3069
 30
0
 70
     0
  0
VERTEX
  8
LAYER1
 10
4.2319
 20
5.2946
 30
0
 70
     0
  0
SEQEND
  0
POLYLINE
  8
LAYER1
  6
CONTINUOUS
 62
     7
 66
     1
 70
     0
 40
0.0049
 41
0.0049
  0
VERTEX
  8
LAYER1
 10
4.2532
 20
5.2751
 30
0
 70
     0
  0
VERTEX
  8
LAYER1
 10
4.2669
 20
5.2597
 30
0
 70
     0
  0
VERTEX
  8
LAYER1
 10
4.2791
 20
5.2431
 30
0
 70
     0
  0
SEQEND
  0
POLYLINE
  8
LAYER1
  6
CONTINUOUS
 62
     7
 66
     1
 70
     0
 40
0.0049
 41
0.0049
  0
VERTEX
  8
LAYER1
 10
4.2937
 20
5.2183
 30
0
 70
     0
  0
VERTEX
  8
LAYER1
 10
4.3023
 20
5.1996
 30
0
 70
     0
  0
VERTEX
  8
LAYER1
 10
4.3091
 20
5.1801
 30
0
 70
     0
  0
SEQEND
  0
POLYLINE
  8
LAYER1
  6
CONTINUOUS
 62
     7
 66
     1
 70
     0
 40
0.0049
 41
0.0049
  0
VERTEX
  8
LAYER1
 10
4.3159
 20
5.1521
 30
0
 70
     0
  0
VERTEX
  8
LAYER1
 10
4.3186
 20
5.1317
 30
0
 70
     0
  0
VERTEX
  8
LAYER1
 10
4.3194
 20
5.1111
 30
0
 70
     0
  0
SEQEND
  0
LINE
  8
LAYER1
  6
DASH2
 62
     7
 10
4.0139
 20
5.3472
 30
0
 11
3.8611
 21
5.3472
 31
0
  0
INSERT
  8
LAYER1
  2
Group10
 10
0
 20
0
 30
0
  0
LINE
  8
LAYER1
  6
CONTINUOUS
 62
     7
 10
3.9306
 20
5.3472
 30
0
 11
3.9028
 21
5.3472
 31
0
  0
LINE
  8
LAYER1
  6
CONTINUOUS
 62
     7
 10
4.5833
 20
5.3472
 30
0
 11
4.6806
 21
5.3472
 31
0
  0
LINE
  8
LAYER1
  6
CONTINUOUS
 62
     7
 10
4.3056
 20
5.0694
 30
0
 11
4.3056
 21
4.9167
 31
0
  0
LINE
  8
LAYER1
  6
CONTINUOUS
 62
     7
 10
4.2083
 20
5.125
 30
0
 11
4.3889
 21
5.125
 31
0
  0
INSERT
  8
LAYER1
  2
Group11
 10
0
 20
0
 30
0
  0
INSERT
  8
LAYER1
  2
Group12
 10
0
 20
0
 30
0
  0
ENDBLK
  8
LAYER1
  0
BLOCK
  8
LAYER1
  2
Group14
 70
     0
 10
0
 20
0
 30
0
  0
TEXT
  8
LAYER1
 62
     7
 10
2.5106
 20
0.0795
 30
0
 40
0.1389
  1
- 4-152 -
 50
0
999
Geneva
  0
TEXT
  8
LAYER1
 62
     7
 10
1.2884
 20
6.8712
 30
0
 40
0.0833
  1
Jacketed Pipe
 50
0
999
Geneva
  0
TEXT
  8
LAYER1
 62
     7
 10
1.4689
 20
4.5517
 30
0
 40
0.0833
  1
Reducer
 50
0
999
Geneva
  0
TEXT
  8
LAYER1
 62
     7
 10
3.9828
 20
6.7184
 30
0
 40
0.0833
  1
Line Blind
 50
0
999
Geneva
  0
TEXT
  8
LAYER1
 62
     7
 10
3.7467
 20
4.6906
 30
0
 40
0.0833
  1
Reversible Elbow
 50
0
999
Geneva
  0
TEXT
  8
LAYER1
 62
     7
 10
1.0939
 20
8.6628
 30
0
 40
0.0833
  1
Figure 8-Type Blind
 50
0
999
Geneva
  0
TEXT
  8
LAYER1
 62
     7
 10
3.7745
 20
8.649
 30
0
 40
0.0833
  1
Hose Connection
 50
0
999
Geneva
  0
TEXT
  8
LAYER1
 62
     7
 10
3.3023
 20
8.4823
 30
0
 40
0.0833
  1
(use appropriate valve symbol)
 50
0
999
Geneva
  0
INSERT
  8
LAYER1
  2
Group1
 10
0
 20
0
 30
0
  0
TEXT
  8
LAYER1
 62
     7
 10
1.2884
 20
6.7045
 30
0
 40
0.0833
  1
Jacketed Pipe
 50
0
999
Geneva
  0
TEXT
  8
LAYER1
 62
     7
 10
1.0939
 20
8.4962
 30
0
 40
0.0833
  1
Figure 8-Type Blind
 50
0
999
Geneva
  0
INSERT
  8
LAYER1
  2
Group2
 10
0
 20
0
 30
0
  0
INSERT
  8
LAYER1
  2
Group5
 10
0
 20
0
 30
0
  0
INSERT
  8
LAYER1
  2
Group6
 10
0
 20
0
 30
0
  0
INSERT
  8
LAYER1
  2
Group7
 10
0
 20
0
 30
0
  0
TEXT
  8
LAYER1
 62
     7
 10
3.9828
 20
6.5656
 30
0
 40
0.0833
  1
Line Blind
 50
0
999
Geneva
  0
INSERT
  8
LAYER1
  2
Group9
 10
0
 20
0
 30
0
  0
INSERT
  8
LAYER1
  2
Group13
 10
0
 20
0
 30
0
  0
TEXT
  8
LAYER1
 62
     7
 10
3.7467
 20
4.5378
 30
0
 40
0.0833
  1
Reversible Elbow
 50
0
999
Geneva
  0
TEXT
  8
LAYER1
 62
     7
 10
4.9412
 20
0.3017
 30
0
 40
0.0833
  1
©1992
 50
0
999
Geneva
  0
TEXT
  8
LAYER1
 62
     7
 10
4.2328
 20
0.1351
 30
0
 40
0.0833
  1
Advanced System Design, Inc.
 50
0
999
Geneva
  0
TEXT
  8
LAYER1
 62
     7
 10
0.1495
 20
0.149
 30
0
 40
0.0833
  1
Scale 1/4in = 1ft  Printed at 70%
 50
0
999
Geneva
  0
TEXT
  8
LAYER1
 62
     7
 10
1.5106
 20
8.3434
 30
0
 40
0.0833
  1
36700
 50
0
999
Geneva
  0
TEXT
  8
LAYER1
 62
     7
 10
4.0662
 20
8.3434
 30
0
 40
0.0833
  1
36701
 50
0
999
Geneva
  0
TEXT
  8
LAYER1
 62
     7
 10
1.5106
 20
6.5378
 30
0
 40
0.0833
  1
36702
 50
0
999
Geneva
  0
TEXT
  8
LAYER1
 62
     7
 10
4.0662
 20
6.4406
 30
0
 40
0.0833
  1
36703
 50
0
999
Geneva
  0
TEXT
  8
LAYER1
 62
     7
 10
1.5106
 20
4.2184
 30
0
 40
0.0833
  1
36704
 50
0
999
Geneva
  0
TEXT
  8
LAYER1
 62
     7
 10
4.0662
 20
4.3434
 30
0
 40
0.0833
  1
36705
 50
0
999
Geneva
  0
TEXT
  8
LAYER1
 62
     7
 10
1.4689
 20
4.399
 30
0
 40
0.0833
  1
Reducer
 50
0
999
Geneva
  0
ENDBLK
  8
LAYER1
  0
ENDSEC
  0
SECTION
  2
ENTITIES
  0
INSERT
  8
LAYER1
  2
Group14
 10
0
 20
0
 30
0
  0
ENDSEC
  0
EOF
